jueves, 30 de marzo de 2017

Euro Millions&EuroJackpot,Table of random numbers for 31/Mar/2017


Edad de la Luna(Moon Age) 03,671 (31/Mar 21:30)

Otro tipo de la tabla de los números aleatrios
;Edad de la Luna(Moon Age) 03,671 (31/Mar 21:30)

5/50+2/12 Lotto EuroMillions

-----------*0--------11--------21--------31--------41--------5
------------12345678901234567890123456789012345678901234567890--Edad-/☆
10/05/2016-/-2-----------------------67------------0--------9-/03,507/10/5
23/04/2004-/-----6---0----------1-----------------------5---9-/03,563/5/3
24/11/2006-/----5--8--------7-------5--------------0----------/03,585/5/1
26/06/2009-/-----6----1---------1--------0--------9-----------/03,606/8/2
27/01/2012-/---------0--3-----9-------------------9----4------/03,628/6/2
29/08/2014-/-2------9----------------6-----2-----8------------/03,649/3/6
31/03/2017-/*-*-*-----**--*-*----**-*-*-***---------*-*----*-*/03,671/
29/11/2011-/----------1-------------5---------------1---5----0/03,689/7/2
01/07/2014-/-----------------8---2--5-7-----------9-----------/03,710/5/10
31/01/2017-/--34------------7-----3--------------------4------/03,732/6/9
14/01/2005-/-----6----1--4----9---------9---------------------/03,788/3/1
17/08/2007-/-23---------3------------------------8---2--------/03,809/7/8
19/03/2010-/---------0-----------------8-0-------89-----------/03,831/7/2

;Distancia con la Luna(Moon Distance) 364007km (31/Mar 21:30) 

5/50+2/12 Lotto EuroMillions(EM),5/50 Lotto EuroJackpot(EJ)

-----------*0--------11--------21--------31--------41--------5
------------12345678901234567890123456789012345678901234567890--Edad-/☆
04/08/2015-/---------0----5-----------------------9-----5----0/363897/10/9
17/05/2011-/-------------------01---------------7-------56----/363921/3/2
09/03/2012-/--3----------------------------2---6--9-------7---/363930/6/9
06/02/2009-/---------0---------0---------0-----6---0----------/363968/3/5
01/06/2012-/-2-4---------4-----------6---------6--------------/363972/9/10
01/06/2012-/----------1----------------8-----4--78------------/363972/3/7 EJ
31/03/2017-/*-*-*-----**--*-*----**-*-*-***---------*-*----*-*/364007/
05/04/2016-/--3-5---9---------9--------------------0----------/364103/5/2
08/03/2016-/1------89----4--------3---------------------------/364128/7/1
20/04/2007-/----------------------3--6-----2--------1---5-----/364161/3/7
31/08/2007-/-----6-----------8---23-------------7-------------/364176/6/5
18/05/2007-/-------------------------6-------4--7-9---------9-/364283/2/6
14/07/2006-/1-----7---------7-------------1----6--------------/364337/8/2

Euro Millions,Table of random numbers for 31/Mar/2017


miércoles, 29 de marzo de 2017

Results of Euro Millions 28/Mar/2017

Resultado de EuroMillones 28/Mar/2017

09-13-31-33-46 ☆6-10

Un millón: Cada viernes habrá un nuevo millonario solo en España.31/Mar/2017.

no existen boletos acertantes de Primera Categoría (5 + 2).
El EUROBOTE del próximo viernes,31/Mar/2017, un único acertante podría ganar 58 MILLONES de euros.

QUE LA SUERTE TE ACOMPAÑE

lunes, 27 de marzo de 2017

Edad de la Luna(Moon Age) 00,671 (28/Mar 21:30)

Otro tipo de la tabla de los números aleatrios
;Edad de la Luna(Moon Age) 00,671 (28/Mar 21:30)

5/50+2/12 Lotto EuroMillions
------------0--------11--------21--------31--------41--------5
------------12345678901234567890123456789012345678901234567890--Edad-/☆
19/01/2007-/----5-------3-------------7-----3--------2--------/00,523/4/2
21/08/2009-/---4--7--------6--------------1----------2--------/00,545/5/3
23/03/2012-/--------9-----5-------3-------1------------------0/00,566/8/11
24/10/2014-/--3-----9----------0---------0-----------2--------/00,588/6/1
24/01/2012-/12---6-------------0---------------6--------------/00,628/11/8
26/08/2014-/---------0-----------2-------------6-----------8--/00,649/11/4
28/03/2017-/*---*------****-------**-*----**--**------*-*--*--/00,671/
11/03/2005-/-------8---2----------3----------------0--3-------/00,727/1/4
12/10/2007-/--------------------1----------2---6---------67---/00,748/3/4
14/05/2010-/1---------------7-------------1-----------3---7---/00,779/3/2
14/12/2012-/---------01-----------------9----------0--3-------/00,791/11/3
17/07/2015-/1-------------------12--------------------3----8--/00,813/9/7
16/10/2012-/---------0---------------------2-------01-------9-/00,852/2/8

;Distancia con la Luna(Moon Distance) 368283km (28/Mar 21:30)

5/50+2/12 Lotto EuroMillions(EM),5/50+2/10 Lotto EuroJackpot(EJ)

------------0--------11--------21--------31--------41--------5
------------12345678901234567890123456789012345678901234567890--Edad-/☆
20/05/2014-/----5---------------------------3--6-8--------7---/368075/4/9
14/01/2005-/-----6----1--4----9---------9---------------------/368144/3/1
16/08/2013-/-------------------0---4--7---------7-9-----------/368177/5/10
16/08/2013-/----5--------------------------23----8----------9-/368177/3/8 EJ
06/03/2009-/------------3---7-9-----5---------5---------------/368212/5/6
17/09/2013-/------------3---7---1--------------------2-4------/368233/11/9
28/03/2017-/*---*------****-------**-*----**--**------*-*--*--/368283/
28/04/2006-/----5----0------7----2----------3-----------------/368310/7/5
04/11/2014-/1----6------3---7--------6------------------------/368326/3/5
23/10/2015-/------7-----------------5----0-2----------------9-/368416/2/8
23/10/2015-/---------------6-8---------------4-6------------9-/368416/6/8 EJ
05/02/2013-/-----6------------------5-----1--------0----5-----/368565/6/7
30/12/2005-/-------8-------6--9-----------------------3-5-----/368570/1/4

Euro Millions,Table of random numbers for 28/Mar/2017


SHOOTING_STARS_39 (Semana13)

onc:ONCE Spain "7/39" (mon & thu)
nyl:New york Take5 "5/39" (every day)
wis:Wisconsin SuperCash "6/39" (every day)
cal:California Fantasy5 "5/39" (every day)
was:Washington HIT_5" 5/39" (mon,wed & sat)
--------0---------1---------2---------3---------4
--------*1234567890123456789012345678901234567890
0330cal-/---------------------------------------/
0330wis-/---------------------------------------/
0330nyl-/---------------------------------------/
0330onc-/---------------------------------------/Thu
0329cal-/1----67----2-------------------------8-/
0329was-/---4-----0---4---8-------------2-------/
0329wis-/-----6-----2--5-----12--------------7--/
0329nyl-/------7-----3-----9----4-------------8-/Wed
0328cal-/-----6--9------------------8--1----6---/
0328wis-/1---5----0----5-----1---5--------------/
0328nyl-/-2--5----------6--------5----------6---/Tue
0327cal-/----------1-3----------45------------8-/
0327was-/1--------------6----------7---------78-/
0327wis-/----5---90--------------5-----1---5----/
0327nyl-/------------3------------6--9---3-----9/
0327onc-/--3-------1----6-----2-------------678-/Mon
0326cal-/-----------2--5-----------7-9-------7--/
0326wis-/-----6--------5--8----3-----9-------7--/
0326nyl-/------------34----------5---9--------8-/Sun
0325cal-/-2------9--2----7---------------3------/
0325was-/-2---------------------4------1----67--/
0325wis-/--------------5-7---------7-9----4---8-/
0325nyl-/-2-4-6-----2---------------------4-----/Sat
0324cal-/----------1------8-------------2-----89/
0324wis-/1----6-------------0-----6------3----8-/
0324nyl-/1-----7---1--------------------23------/Fri
0323cal-/1----6--------------------7---12-------/
0323wis-/---------------67----2--------1-3-----9/
0323nyl-/-2------------5-7------4----------5----/
0323onc-/-2----------------90----5--------45---9/Thu
0322cal-/1-3--------------8----3-----9----------/
0322was-/------7-----3--6-8-----------------6---/
0322wis-/12-4--7--------------2----7------------/
0322nyl-/-------------45-7------4---------4-----/Wed
0321cal-/-2---6------3--67----------------------/
0321wis-/---4--7-------------1-----7--0----5----/
0321nyl-/---------------6---0-----6---0-----6---/Tue
0320cal-/--3-----------5-----12--5--------------/
0320was-/-----------2----7--------6-8-------6---/
0320wis-/----------1--4-67-----------9--------8-/
0320nyl-/--3---7-90------------------------5----/
0320onc-/----5-------34--------3--6-8--1--------/Mon