jueves, 22 de junio de 2017

Euro Millions&EuroJackpot,Table of random numbers for 23/Jun/2017


Edad de la Luna(Moon Age) 28,609 (23/Jun 21:30)

Otro tipo de la tabla de los números aleatrios
;Edad de la Luna(Moon Age) 28,609 (23/Jun 21:30)

5/50+2/12 Lotto EuroMillions

-----------*0--------11--------21--------31--------41--------5
------------12345678901234567890123456789012345678901234567890--Edad-/☆
02/08/2016-/-2-----8------------------7----------8-------6----/28,446/2/6
16/07/2004-/-----------------------4-6----1------8-----------0/28,502/8/5
16/02/2007-/-------8----------90------------------9----------0/28,523/6/9
18/09/2009-/-----6---------6-------------0-------8--1---------/28,545/2/4
20/04/2012-/--3--6----------------------9--2--------1---------/28,566/10/11
21/11/2014-/---4--7--------------------8---2----7-------------/28,588/5/19
23/06/2017-/*---------*-****--**-------*--**-*-----***--*--*--/28,609/
21/02/2012-/----------1--4---------45---9---------------------/28,628/11/7
23/09/2014-/-----------234--------------9-----5---------------/28,649/1/7
25/04/2017-/--------9-1-------9------------2----------3-------/28,671/3/9
08/04/2005-/------7---1-------------5-----1------------------0/28,727/3/1
09/11/2007-/----5--------4-------2--5----------6--------------/28,748/6/5
11/06/2010-/-2-------------------2-4-----------6-------4------/28,769/2/1

;Distancia con la Luna(Moon Distance) 358137km (23/Jun 21:30) 

5/50+2/12 Lotto EuroMillions(EM),5/50 Lotto EuroJackpot(EJ)

-----------*0--------11--------21--------31--------41--------5
------------12345678901234567890123456789012345678901234567890--Edad-/☆
29/09/2015-/----------1--4-----------6--9-------------------9-/357719/3/9
06/10/2006-/----5-----1----------2------------5--8------------/357753/7/8
06/05/2016-/-------------------------------2-4-----0----5--8--/357861/10/1
06/05/2016-/-----------2-----------4-------------8------56----/357861/10/6 EJ
14/12/2012-/---------01-----------------9----------0--3-------/358136/11/3
14/12/2012-/----------------7----------8--1---5---9-----------/358136/5/8 EJ
23/06/2017-/*---------*-****--**-------*--**-*-----***--*--*--/358137/
03/01/2014-/--3-----------------------7---1------8-----4------/358177/3/8
03/01/2014-/1--------------6-----------------4-67-------------/358177/4/6 EJ
23/11/2007-/-2-------0-----------2------9------------------8--/358194/9/3
12/08/2014-/------7--------6--9--2----------3-----------------/358449/5/2
13/12/2016-/-------------4-------------89------------------8-0/358470/8/2
29/01/2010-/--------9-------7------------0--------9---3-------/358487/7/5

Euro Millions,Table of random numbers for 23/Jun/2017


miércoles, 21 de junio de 2017

Results of Euro Millions 20/Jun/2017

Resultado de EuroMillones 20/Jun/2017

11-18-26-43-44 ☆8-10

Un millón: Cada viernes habrá un nuevo millonario solo en España.23/Jun/2017.

No existen boletos acertantes de Primera Categoría (5 + 2).
El EUROBOTE del próximo viernes,23/Jun/2017, un único acertante podría ganar 73 MILLONES de euros.

QUE LA SUERTE TE ACOMPAÑE

lunes, 19 de junio de 2017

Edad de la Luna(Moon Age) 25,609 (20/Jun 21:30)

Otro tipo de la tabla de los números aleatrios
;Edad de la Luna(Moon Age) 25,609 (20/Jun 21:30)

5/50+2/12 Lotto EuroMillions
------------0--------11--------21--------31--------41--------5
------------12345678901234567890123456789012345678901234567890--Edad-/☆
13/04/2007-/------7------------0----5------------8--1---------/25,462/3/7
13/11/2009-/------------3-5---------56-----2------------------/25,484/4/3
15/06/2012-/---------0-----------2----7----------8---------8--/25,505/3/7
16/01/2015-/----------------------------90-2-4-----------6----/25,527/6/3
17/04/2012-/---------------6-----------8----3--------------89-/25,566/10/1
18/11/2014-/-23-------------7------------------6-8------------/25,588/11/4
20/06/2017-/*--**---------*--**---***-----**--*-*-*-*----**--*/25,609/
03/06/2005-/--3----8--1-----7--------------------------------0/25,666/5/1
04/01/2008-/---------0-2-----------45---------------1---------/25,687/3/5
06/08/2010-/------------3-----------5------------89--2--------/25,709/4/5
08/03/2013-/--3----------------0--3----8-------------2--------/25,730/8/11
09/10/2015-/1--------------------------------------0-23---7---/25,752/9/11
08/01/2013-/-2-----------------0-2---6--------------------7---/25,791/9/5

;Distancia con la Luna(Moon Distance) 367760km (20/Jun 21:30)

5/50+2/12 Lotto EuroMillions(EM),5/50+2/10 Lotto EuroJackpot(EJ)

------------0--------11--------21--------31--------41--------5
------------12345678901234567890123456789012345678901234567890--Edad-/☆
16/09/2016-/----5--8-----4-------2---------2------------------/367546/2/11
16/09/2016-/--------------5------------8-0------7-----3-------/367546/5/2 EJ 
21/09/2012-/---4--------------9--------------4------1-3-------/367567/7/11
21/09/2012-/-----------------8----------9-----------1--4----9-/367567/1/5 EJ
27/01/2006-/--------9-----5-----1------------------0--------9-/367719/4/1
07/07/2015-/-----67----------8--------------3-------1---------/367748/10/3
20/06/2017-/*--**---------*--**---***-----**--*-*-*-*----**--*/367760/
18/11/2016-/--3--------2--------------7----2--------------7---/367768/8/6
18/11/2016-/------7--0-----6---------------2-------0----------/367768/6/1 EJ
14/04/2015-/-----------------------4-------2-45-------------9-/367951/2/1
05/08/2011-/------------34---8-------------2-4----------------/367985/1/10
11/04/2008-/-----6------------------5----0--------------5----0/368063/5/7
29/05/2014-/----5-----------------3--6-8------------------7---/368075/4/9

Euro Millions,Table of random numbers for 20/Jun/2017


SHOOTING_STARS_39 (Semana25)

onc:ONCE Spain "7/39" (mon & thu)
nyl:New york Take5 "5/39" (every day)
wis:Wisconsin SuperCash "6/39" (every day)
cal:California Fantasy5 "5/39" (every day)
was:Washington HIT_5" 5/39" (mon,wed & sat)
--------0---------1---------2---------3---------4
--------*1234567890123456789012345678901234567890
0622cal-/---------------------------------------/
0622wis-/---------------------------------------/
0622nyl-/---------------------------------------/
0622onc-/---------------------------------------/Thu
0621cal-/--------9-1-------90-------------4-----/
0621was-/--------------56--9--2-------0---------/
0621wis-/--3--------23---7------45--------------/
0621nyl-/--3--------------------4-6-----2-4-----/Wed
0620cal-/-----------2------------5--------4-67--/
0620wis-/----------1-3---78-0-----6-------------/
0620nyl-/--3-------123--------------------4-----/Tue
0619cal-/1-----------3--6-----2-------0---------/
0619was-/-------8---2-----89----4---------------/
0619wis-/----5-7----2---6-------4---------4-----/
0619nyl-/------------34-6-----------8-------6---/
0619onc-/----------1----6---0--------9---34-6---/Mon
0618cal-/---------------6-----------8------56--9/
0618wis-/----5------------8-----------0-2--56---/
0618nyl-/--3----8-----------------6-8--------7--/Sun
0617cal-/--3--------------8---2----7-----3------/
0617was-/-2----------3--------------8--1------8-/
0617wis-/------------3---7-9--2--------1--4-----/
0617nyl-/----5-----------7---1-----------34-----/Sat
0616cal-/-------------4-----0----5-----1-3------/
0616wis-/1------8-------------2---67---1--------/
0616nyl-/--3--------2---6------3-----------5----/Fri
0615cal-/--------9------------2-------0--3----8-/
0615wis-/---4----------56-------45-------3------/
0615nyl-/--34--7------------------------23------/
0615onc-/--3--6-----------8------5--8---2---6---/Thu
0614cal-/-----------2---6--9--2------------5----/
0614was-/1---------12------------5-----1--------/
0614wis-/---------0-2-------01---5------------8-/
0614nyl-/----5-----1--------0-2--------------7--/Wed
0613cal-/-----6--9----------0-2----7------------/
0613wis-/--------------------1-3-5----0----5-7--/
0613nyl-/---4-6--------------1---5---9----------/Tue
0612cal-/---------01----------2--5------2-------/
0612was-/-----------2--5-------3---7-------5----/
0612wis-/---4--------------9---3-------1--4----9/
0612nyl-/-----6----1-3--6--------------1--------/
0612onc-/---4--7------4------1----6--------5---9/Mon