jueves, 19 de abril de 2018

Euro Millions&EuroJackpot,Table of random numbers for 20/Apr/2018


Edad de la Luna(Moon Age) 04,773 (20/Apr 21:30)

Otro tipo de la tabla de los números aleatrios
;Edad de la Luna(Moon Age) 04,773 (20/Apr 21:30)

5/50+2/12 Lotto EuroMillions

-----------*0--------11--------21--------31--------41--------5
------------12345678901234567890123456789012345678901234567890--Edad-/☆
30/05/2017-/------7----2--------------7----------8---------8--/04,609/9/6
13/05/2005-/-----------2----7-------------12-------0----------/04,666/9/2
14/12/2007-/-------8----------------5----0-----6-------4------/04,687/4/3
16/07/2010-/-------------------------------------89-----56--8-/04,709/7/8
15/02/2013-/-2-4-----------------2-----8-------------2--------/04,730/4/9
18/09/2015-/------7---------------------9---34----9-----------/04,752/8/7
20/04/2018-/----*------------*------**-***--*****--**--***----/04,773/
18/12/2012-/-------------4---8-0--------------5--------4------/04,791/5/2
21/07/2015-/-------------4-----0------7-9--------------4------/04,813/10/7
20/02/2018-/-----6-------4----9-----5---9---------------------/04,834/11/5
03/02/2006-/--------9-----------1--------0--------9----------0/04,890/3/1
15/09/2008-/------7----2---67---------------------9-----------/04,912/3/8
08/04/2011-/--------------------1-3--------------8--------7--0/04,933/6/2

;Distancia con la Luna(Moon Distance) 368852km (20/Apr 21:30) 

5/50+2/12 Lotto EuroMillions(EM),5/50 Lotto EuroJackpot(EJ)

-----------*0--------11--------21--------31--------41--------5
------------12345678901234567890123456789012345678901234567890--Edad-/☆
31/07/2012-/---4------------------------9-----56--9-----------/368659/9/8
13/01/2017-/--3---7--------6---------6-----------------------0/368725/4/7
13/01/2017-/-2------------------1----6-----------------45-----/368725/1/6 EJ
27/06/2017-/--------9-------7---1------8----------------5-----/368831/1/3
30/10/2015-/-------8----3---7---1------------4----------------/368835/6/7
30/10/2015-/----5---------56-------------------67-------------/368835/5/3 EJ
20/04/2018-/----*------------*------**-***--*****--**--***----/368852/
03/02/2006-/--------9-----------1--------0--------9----------0/368864/3/1
02/04/2013-/-----------2----7-------5---9-----------1---------/368877/1/4
07/02/2017-/---4-----0--------------------1------8-----4---8--/368893/10/8
10/06/2011-/--3---------------90----------------7-------------/368945/8/11
14/06/2011-/----5------2------9---------------------1------8--/369075/8/10
11/03/2005-/-------8---2----------3----------------0--3-------/369085/1/4

Euro Millions,Table of random numbers for 20/Apr/2018


miércoles, 18 de abril de 2018

Results of Euro Millions 17/Apr/2018

Resultado de EuroMillones 17/Abr/2018

15-27-33-39-50 ☆6-4

Un millón: Cada viernes habrá un nuevo millonario solo en España.20/Abr/2018.

No existen boletos acertantes de Primera Categoría (5 + 2).
El EUROBOTE Especial del próximo viernes un único acertante podría ganar 130 millones de euros.

QUE LA SUERTE TE ACOMPAÑE

lunes, 16 de abril de 2018

Edad de la Luna(Moon Age) 01,773 (17/Abr 21:30)

Otro tipo de la tabla de los números aleatrios
;Edad de la Luna(Moon Age) 01,773 (17/Abr 21:30)

5/50+2/12 Lotto EuroMillions
------------0--------11--------21--------31--------41--------5
------------12345678901234567890123456789012345678901234567890--Edad-/☆
08/02/2008-/----------------7----------8-0-------8-----4------/01,626/1/4
10/09/2010-/----------------7---1-------------5-----1---5-----/01,647/5/1
12/04/2013-/----5----0----5------------8----------------5-----/01,669/3/9
13/11/2015-/---------0------78--------------3------0----------/01,690/8/2
12/02/2013-/----5-----1----6--------5--8----------------------/01,730/7/9
15/09/2015-/-------8------5-7--------------------------4----9-/01,752/5/8
17/04/2018-/----*-*--*----**-**----------*--*-*-**----*----*--/01,773/
31/03/2006-/--3----------------0----------1-------------5----0/01,829/7/6
31/10/2008-/--3--------------8------5--------4------1---------/01,851/5/2
03/06/2011-/---4----------------------------------90--------90/01,872/2/5
03/01/2014-/--3-----------------------7---1------8-----4------/01,894/3/8
05/08/2016-/---------------6--9----4----------5-7-------------/01,915/2/7
05/11/2013-/-----6-----23---------------------5--8------------/01,955/2/3

;Distancia con la Luna(Moon Distance) 374284km (17/Abr 21:30)

5/50+2/12 Lotto EuroMillions(EM),5/50+2/10 Lotto EuroJackpot(EJ)

------------0--------11--------21--------31--------41--------5
------------12345678901234567890123456789012345678901234567890--Dist-/☆
11/05/2007-/------7----2-------------6--9-------------------9-/374052/6/2
19/06/2009-/---4-----------67--0--------9---------------------/374085/7/5
22/05/2009-/---4--------34------------------3---------3-------/374120/6/1
23/05/2014-/--3----8----------------------1--4------------7---/374154/11/9
23/05/2014-/-----6--------------1-----------3---7---------7---/374154/7/8 EJ
28/08/2012-/1----------------8------56-----------------4------/374176/5/4
17/04/2018-/----*-*--*----**-**----------*--*-*-**----*----*--/374284/
08/06/2012-/----5-----1----------2-----------4-----0----------/374429/9/11
08/06/2012-/---------0----56-------------------6-------4------/374429/7/8 EJ
09/10/2009-/------7---1-----------------9----------------6---0/374475/4/7
15/03/2016-/----5-7--0-----------------------4---------4------/374484/10/2
25/12/2015-/--3------0--------------5-7------------0----------/374559/9/3
25/12/2015-/-------89-----------------------34-6--------------/374559/9/3 EJ

Euro Millions,Table of random numbers for 17/Apr/2018


SHOOTING_STARS_39 (Semana16)

onc:ONCE Spain "7/39" (mon & thu)
nyl:New york Take5 "5/39" (every day)
wis:Wisconsin SuperCash "6/39" (every day)
cal:California Fantasy5 "5/39" (every day)
was:Washington HIT_5" 5/39" (mon,wed & sat)
--------0---------1---------2---------3---------4
--------*1234567890123456789012345678901234567890
0423cal-/---------------------------------------/
0423was-/---------------------------------------/
0423wis-/---------------------------------------/
0423nyl-/---------------------------------------/
0423onc-/---------------------------------------/Mon
0422cal-/---------------------------------------/
0422wis-/---------------------------------------/
0422nyl-/---------------------------------------/Sun
0421cal-/---------------------------------------/
0421was-/---------------------------------------/
0421wis-/---------------------------------------/
0421nyl-/---------------------------------------/Sat
0420cal-/---------------------------------------/
0420wis-/---------------------------------------/
0420nyl-/---------------------------------------/Fri
0419cal-/----------1-3--------2----7-----------9/
0419wis-/1------8-----4----------56-----------8-/
0419nyl-/--3--------23-----------------1-3------/
0419onc-/----5-7------4---8-0--3-----------5----/Thu
0418cal-/-2----7---------7-9----------------6---/
0418was-/-------------------------6-8--1----6-8-/
0418wis-/--3-------1---5-----1---5---9----------/
0418nyl-/----5---9---3-------------------3---7--/Wed
0417cal-/------7--0--3------01------------------/
0417wis-/----56--90--3------------------------8-/
0417nyl-/--------9-------7----------8-----4--7--/Tue
0416cal-/---------0-2---67------4---------------/
0416was-/------7-----3-5-------------9---3------/
0416wis-/-2--5-----1-3--------------------4---8-/
0416nyl-/1---------1---5-------------9------6---/
0416onc-/12------------5-7---1----6------------9/Mon
0415cal-/1---------------78-------------23------/
0415wis-/1-34--7---1--4-------------------------/
0415nyl-/-2-----------------------67--0-2-------/Sun
0414cal-/12---6---0----5------------------------/
0414was-/-----------2---6-------------0-23------/
0414wis-/---------0-2-------0--------90-----6---/
0414nyl-/--3-----9----------------6--9---3------/Sat
0413cal-/-----6-----2-----8--------7-9----------/
0413wis-/----------12--5----0-----------2--5----/
0413nyl-/--------9-----------------------3-5-78-/Fri
0412cal-/--3-------------7---1----67------------/
0412wis-/------------3-5-78------------1---5----/
0412nyl-/------7-----3--------------89-1--------/
0412onc-/------7-9--2-----------456-----------8-/Thu
0411cal-/--3---------3----8----------9------6---/
0411was-/----5----01-------------5--8-----------/
0411wis-/1---5--------45-----1-------------5----/
0411nyl-/12-----------4------------7-----------9/Wed
0410cal-/-----6--9------------------8-0---4-----/
0410wis-/-2----------------90------7-----3--6---/
0410nyl-/------7--------------2---6--9-----5----/Tue
0409cal-/---45-----1--4-------------------4-----/
0409was-/-------------4--78-----4---------4-----/
0409wis-/---4----9----------------6-8---23------/
0409nyl-/---4---8-----------------------2-4--7--/
0409onc-/1------8---23-----------5--8----------9/Mon