jueves, 22 de febrero de 2018

Euro Millions&EuroJackpot,Table of random numbers for 23/Feb/2018


Edad de la Luna(Moon Age) 07,834 (23/Feb 21:30)

Otro tipo de la tabla de los números aleatrios
;Edad de la Luna(Moon Age) 07,834 (23/Feb 21:30)

5/50+2/12 Lotto EuroMillions

-----------*0--------11--------21--------31--------41--------5
------------12345678901234567890123456789012345678901234567890--Edad-/☆
04/04/2017-/1-------9--------------4--------34----------------/07,671/2/6
18/03/2005-/-----6----------------3---------------9---3----8--/07,727/5/7
19/10/2007-/------7----------8---------------45----0----------/07,748/7/8
21/05/2010-/------7-----------9----------0-------8-----------0/07,770/4/7
21/12/2012-/--3-5----------------2-----------------0-2--------/07,791/3/10
24/07/2015-/-2------9-----------1-------------5----------6----/07,813/2/11
23/02/2018-/---*----*-------------*---**-*--*-*--**----*--**--/07,834/
23/10/2012-/1--------------------------8------5--8-----------0/07,852/2/10
26/05/2015-/----567-------------1--4--------------------------/07,874/6/5
26/12/2017-/---4------------7------------0------------34------/07,895/10/2
09/12/2005-/----------1------8----------------5--8---2--------/07,952/1/5
11/07/2008-/--------9-1-3-----9-----------------7-------------/07,973/3/4
11/02/2011-/-----------2-45---9---3---------------------------/07,995/7/8

;Distancia con la Luna(Moon Distance) 374330km (23/Feb 21:30) 

5/50+2/12 Lotto EuroMillions(EM),5/50 Lotto EuroJackpot(EJ)

-----------*0--------11--------21--------31--------41--------5
------------12345678901234567890123456789012345678901234567890--Edad-/☆
11/05/2007-/------7----2-------------6--9-------------------9-/374052/6/2
19/06/2009-/---4-----------67--0--------9---------------------/374085/7/5
22/05/2009-/---4--------34------------------3---------3-------/374120/6/1
23/05/2014-/--3----8----------------------1--4-------2--------/374154/11/9
23/05/2014-/-----6--------------1-----------3---7---------7---/374154/7/8 EJ
28/08/2012-/1----------------8------56-----------------4------/374176/5/4
23/02/2018-/---*----*-------------*---**-*--*-*--**----*--**--/374330/
08/06/2012-/----5-----1----------2-----------4-----0----------/374429/9/11
08/06/2012-/---------0----56-------------------6-------4------/374429/7/8 EJ
09/10/2009-/------7---1-----------------9----------------6---0/374475/4/7
15/03/2016-/----5-7--0-----------------------4---------4------/374484/10/2
25/12/2015-/--3------0--------------5-7------------0----------/374559/9/3
25/12/2015-/-------89-----------------------34-6--------------/374559/9/3

Euro Millions,Table of random numbers for 23/Feb/2018


miércoles, 21 de febrero de 2018

Results of Euro Millions 20/Feb/2018

Resultado de EuroMillones 20/Feb/2018

06-14-19-25-29 ☆11-5

Un millón: Cada viernes habrá un nuevo millonario solo en España.23/Feb/2018.

No existen boletos acertantes de Primera Categoría (5 + 2).
El EUROBOTE del próximo viernes,23/Feb/2018, un único acertante podría ganar 174 MILLONES de euros.

QUE LA SUERTE TE ACOMPAÑE

lunes, 19 de febrero de 2018

Edad de la Luna(Moon Age) 04,834 (20/Feb 21:30)

Otro tipo de la tabla de los números aleatrios
;Edad de la Luna(Moon Age) 04,834 (20/Feb 21:30)

5/50+2/12 Lotto EuroMillions
------------0--------11--------21--------31--------41--------5
------------12345678901234567890123456789012345678901234567890--Edad-/☆
14/12/2007-/-------8----------------5----0-----6-------4------/04,687/4/3
16/07/2010-/-------------------------------------89-----56--9-/04,709/7/8
15/02/2013-/-2-4-----------------2-----8-------------2--------/04,730/4/9
18/09/2015-/------7---------------------9---34----9-----------/04,752/8/7
18/12/2012-/-------------4---8-0--------------5--------4------/04,791/5/2
21/07/2015-/-------------4-----0------7-9--------------4------/04,813/10/7
20/02/2018-/-**----*-*-*----*-*-*-----**--*--*--*-*---*-*----*/04,834/
03/02/2006-/--------9-----------1--------0--------9----------0/04,890/3/1
05/09/2008-/------7----2---67---------------------9-----------/04,912/3/8
08/04/2011-/--------------------1-3--------------8--------7--0/04,933/6/2
08/11/2013-/-------------------0-------8------5------23-------/04,955/8/10
10/06/2016-/-------------4------1-------------5------23-------/04,976/7/9
10/09/2013-/------7---1--4-------------8-0--------------------/05,016/2/10

;Distancia con la Luna(Moon Distance) 385180km (20/Feb 21:30)

5/50+2/12 Lotto EuroMillions(EM),5/50+2/10 Lotto EuroJackpot(EJ)

------------0--------11--------21--------31--------41--------5
------------12345678901234567890123456789012345678901234567890--Dist-/☆
07/04/2017-/-2-------0--------9---------------5--------------0/384805/7/6
07/04/2017-/---------0----------------7---------------3-56----/384805/8/4 EJ
03/06/2005-/--3----8--1-----7--------------------------------0/384834/5/1
28/05/2010-/---4----9---------------------123-----------------/385019/3/7
16/08/2016-/-2-----------------------6-------4--7--------6----/385023/4/8
10/11/2006-/-------------4------1-----7--0-----6--------------/385026/2/3
20/02/2018-/-**----*-*-*----*-*-*-----**--*--*--*-*---*-*----*/385180/
31/10/2017-/1----------2-----------------------6------3--6----/385208/3/5
24/11/2006-/----5--8--------7-------5--------------0----------/385236/5/1
02/11/2007-/--3------------6-89--------------------0----------/385246/2/1
05/10/2007-/----------1--------0------7-------5--------4------/385254/5/2
13/02/2015-/-----------2-----------4--------------9--2-4------/385283/3/11
13/02/2015-/--3---7------4-------------------------------6-8--/385283/6/9

Euro Millions,Table of random numbers for 20/Feb/2018


SHOOTING_STARS_39 (Semana08)

onc:ONCE Spain "7/39" (mon & thu)
nyl:New york Take5 "5/39" (every day)
wis:Wisconsin SuperCash "6/39" (every day)
cal:California Fantasy5 "5/39" (every day)
was:Washington HIT_5" 5/39" (mon,wed & sat)
--------0---------1---------2---------3---------4
--------*1234567890123456789012345678901234567890
0226cal-/---------------------------------------/
0226was-/---------------------------------------/
0226wis-/---------------------------------------/
0226nyl-/---------------------------------------/
0226onc-/---------------------------------------/Mon
0225cal-/---------------------------------------/
0225wis-/---------------------------------------/
0225nyl-/---------------------------------------/Sun
0224cal-/---------------------------------------/
0224was-/---------------------------------------/
0224wis-/---------------------------------------/
0224nyl-/---------------------------------------/Sat
0223cal-/---------------------------------------/
0223wis-/---------------------------------------/
0223nyl-/---------------------------------------/Fri
0222cal-/1--------------6---0--3---7------------/
0222wis-/--3-------------78---------8--------78-/
0222nyl-/------7---------------3-----------56-8-/
0222onc-/--3----8--1--4--7-----3-------1--------/Thu
0221cal-/------7-----------9-------7---1----6---/
0221was-/----------------78---2--56-------------/
0221wis-/1-----7--0--3--------------8---2-------/
0221nyl-/----5---9--------8----34---------------/Wed
0220cal-/------------------------5--8----34-6---/
0220wis-/------7------------------6--9-1-3---7--/
0220nyl-/------7---1------8----------9--------8-/Tue
0219cal-/12------------------12--5--------------/
0219was-/-2------------5-7------------0------7--/
0219wis-/--3------------6-----2---6--------5---9/
0219nyl-/--------9---3-------1----6----1--------/
0219onc-/1----------------8--1-3---7-------5-7--/Mon
0218cal-/--3---7---------7---1-------------5----/
0218wis-/1-3-5------2-----8-0--------------------/
0218nyl-/--------9------------2---678-----------/Sun
0217cal-/------------------9-1----6-8----------9/
0217was-/--------------5---9----4--------3-5----/
0217wis-/-2-----------4-----0-----6-----2--5----/
0217nyl-/-----6-------4-----0-------------4--7--/Sat
0216cal-/-----------------8-----------012-----8-/
0216wis-/-2-----------4-------2---6------3---7--/
0216nyl-/--3----------------------6-8-0--3------/Fri
0215cal-/------7---1--------0-----------2---6---/
0215wis-/-------------45--8-----4-------2--5----/
0215nyl-/--3--6---0----------------7--------6---/
0215onc-/----5-7-------------------78-0-----67--/Thu
0214cal-/-2-----8---------8--1-----7------------/
0214was-/---------------6--90------------3-5----/
0214wis-/----5-----1--------------6----1-3--6---/
0214nyl-/1------8--1-----------3-------1--------/Wed
0213cal-/----------------------3--6--90-------8-/
0213wis-/----------------78----3---7---1--------/
0213nyl-/-2---------2--5---9----------0---------/Tue
0212cal-/1---5-7------------0----5--------------/
0212was-/-----6---------6-8---------8--1--------/
0212wis-/--3---7---1---5--8----------9----------/
0212nyl-/-----6-----------8-0--------9-1--------/
0212onc-/--3----8----34-----01-----------------9/Mon