sábado, 21 de octubre de 2017

Results of Euro Millions 20/Oct/2017

Resultado de EuroMillones 20/Oct/2017

04-17-23-27-30 ☆3-8

Un millón: SDN 79299, El boleto acertante de El Millón ha sido validado en BEJAR(Salamanca),20/Oct/2017....,Felicidadas.

No existen boletos acertantes de Primera Categoría (5 + 2).
El EUROBOTE del próximo martes,24/Oct/2017, un único acertante podría ganar 64 MILLONES de euros.

QUE LA SUERTE TE ACOMPAÑE

jueves, 19 de octubre de 2017

Euro Millions&EuroJackpot,Table of random numbers for 20/Oct/2017


Edad de la Luna(Moon Age) 29,487 (20/Oct 21:30)

Otro tipo de la tabla de los números aleatrios
;Edad de la Luna(Moon Age) 29,487 (20/Oct 21:30)

5/50+2/12 Lotto EuroMillions

-----------*0--------11--------21--------31--------41--------5
------------12345678901234567890123456789012345678901234567890--Edad-/☆
29/11/2016-/--------------------1----678---------8------------/29,323/11/9
12/11/2004-/---4------123------------------2------------------/29,380/9/3
15/06/2007-/----5-7------4------1------------------0----------/29,401/3/8
15/01/2010-/----------1--------------6--9-------------------90/29,423/4/7
17/08/2012-/------------------9-----5--8----3----------4------/29,444/8/2
20/03/2015-/--3----------4----------------------7----2-----8--/29,466/1/10
20/10/2017-/--***-----*-*--*---**-*-----**-**---*----*-*-----*/29,487/
19/06/2012-/------7---------7--0--------------5--------------0/29,505/5/11
20/01/2015-/--------------5-----------------3-------1--4--7---/29,527/10/8
22/08/2017-/--3------0-2----7---------7-----------------------/29,548/3/5
05/08/2005-/-2--------1---------12-------0--------------------/29,604/4/6
07/03/2008-/-2----7------4--7-----------------5---------------/29,626/6/1
08/10/2010-/--------9--------------------0----5---9------6----/29,647/6/8

;Distancia con la Luna(Moon Distance) 394184km (20/Oct 21:30) 

5/50+2/12 Lotto EuroMillions(EM),5/50 Lotto EuroJackpot(EJ)

-----------*0--------11--------21--------31--------41--------5
------------12345678901234567890123456789012345678901234567890--Edad-/☆
08/08/2017-/--------------5---------56-------------01---------/393994/4/5
22/07/2014-/1----------------------4------------------3-5----0/394049/5/8
27/11/2009-/----5--8----3-5-----------------3-----------------/394052/8/9
22/06/2012-/-------------4---89-----------------------3-----9-/394073/7/3
22/06/2012-/------------34-6------------------------------7-9-/394073/1/7 EJ
12/05/2006-/----5--------------0--3----------4---------------0/394144/1/5
20/10/2017-/--***-----*-*--*---**-*-----**-**---*----*-*-----*/394184/
11/11/2014-/-2-----------4------1--------------6---------6----/394287/11/7
23/08/2011-/---4-6-------4---------------------------2-------0/394292/2/4
26/07/2011-/1---5----------------2--5----------------------8--/394413/11/3
23/07/2010-/---4--------3---------------------5-7--------6----/394454/9/3
16/09/2014-/---4------------------------90----5--------------0/394524/4/2
30/10/2009-/--------9-----------------------3-5--8-0----------/394600/6/2

Euro Millions,Table of random numbers for 20/Oct/2017


miércoles, 18 de octubre de 2017

Results of Euro Millions 17/Oct/2017

Resultado de EuroMillones 17/Oct/2017

13-17-19-26-36 ☆2-3

Un millón: Cada viernes habrá un nuevo millonario solo en España.20/Oct/2017.

No existen boletos acertantes de Primera Categoría (5 + 2).
El EUROBOTE del próximo viernes,20/Oct/2017, un único acertante podría ganar 54 MILLONES de euros.

QUE LA SUERTE TE ACOMPAÑE

lunes, 16 de octubre de 2017

Edad de la Luna(Moon Age) 26,487 (17/Oct 21:30)

Otro tipo de la tabla de los números aleatrios
;Edad de la Luna(Moon Age) 26,487 (17/Oct 21:30)

5/50+2/12 Lotto EuroMillions
------------0--------11--------21--------31--------41--------5
------------12345678901234567890123456789012345678901234567890--Edad-/☆
10/08/2007-/----------------------3----------------0-23-----9-/26,340/6/2
12/03/2010-/1------------------------6------3--6---------6----/26,361/7/6
12/10/2012-/-----67---------7-----------------5-------3-------/26,383/2/8
15/05/2015-/----5-----------------------------5------2-4--7---/26,404/9/8
14/08/2012-/1--------------6---------------------8---2--5-----/26,444/9/10
17/03/2015-/----------1-----------3--6-----------8-----4------/26,466/8/1
17/10/2017-/*--*--*---*---*--*----*---*-**--*-----***------***/26,487/
30/09/2005-/-----6----1-----------------------------------78-0/26,543/1/6
02/05/2008-/-2-----------------------6----------7-------5--8--/26,565/8/4
03/12/2010-/-------8----------9--------8---2-------------6----/26,586/4/7
05/07/2013-/---4-------2--5------------8----3-----------------/26,608/1/10
05/02/2016-/--3-----------------------7----2--------1----6----/26,629/4/8
07/05/2013-/------------3-------------78-------------23-------/26,669/4/6

;Distancia con la Luna(Moon Distance) 383942km (17/Oct 21:30)

5/50+2/12 Lotto EuroMillions(EM),5/50+2/10 Lotto EuroJackpot(EJ)

------------0--------11--------21--------31--------41--------5
------------12345678901234567890123456789012345678901234567890--Edad-/☆
30/11/2007-/-----------2------90---------0-------8------------/383736/9/7
16/01/2015-/----------------------------90-2-4-----------6----/383840/6/3
16/01/2015-/1--4---------4-----------------2---------------8--/383840/5/6 EJ
21/07/2006-/-2-4----9----------------------------8-----------0/383851/8/6
21/11/2008-/--------9----4------1---------------------------90/383910/8/3
11/10/2016-/----5------2-------0---4------------7-------------/383932/4/11
17/10/2017-/*--*--*---*---*--*----*---*-**--*-----***------***/383942/
19/12/2014-/----------------------3-----9-1-------9----4------/383984/5/8
19/12/2014-/---------01-------------5------2----------------9-/383984/5/9 EJ
20/10/2015-/----------------7-9-1--------0--------------5-----/384139/8/10
15/07/2011-/-----6-------------------6------34----9-----------/384147/3/4
07/10/2005-/-2----------3-------1----6-----------------4------/384167/3/9
10/01/2012-/---4----90-------------------0---------0----------/384185/9/2

Euro Millions,Table of random numbers for 17/Oct/2017